Monsterboard

"Devil is a Loser" drum tab, can't find it

Talk about anything and everything LORDI-related - in English.

Moderators: Hemitys, psyanide, Nightmare Wings Hell

"Devil is a Loser" drum tab, can't find it

Postby Lucasje » Sat Oct 11, 2008 6:10 pm

Hello there,

I'm a drummer for several years in a band and we usually play songs of Lordi, it;s also my favorite band. Now we want to play "Devil is a Loser" but I can't find any drumtab of the song.

Please can you help me, thank you very much.

Lucasje
Lucasje
 
Posts: 5
Joined: Sat Oct 11, 2008 5:58 pm

Postby S92 » Sat Oct 11, 2008 6:23 pm

I usually just listen to the song and try and copy the beat. I play without the drums just using my feet on the floor and "air drum" and listen to the song a few times and then I try it on the kit.

Try playing drums whilst listening to your MP3 player.

S92
"Is that you, Roberto?"
User avatar
S92
 
Posts: 1704
Joined: Thu Jun 22, 2006 1:00 am
Location: Derby, England

Postby Beauty of the beast » Sat Oct 11, 2008 7:51 pm

I have the drum tab and even the "extra" live opening part for "Would You Love A Monster Man"

Sadly you require "Guitar Pro" to view them but the program is simply superb...

Of course if you're not interested in that then I'll post the tab up here as an ASCII with a little key for what each number stands for on the drum kit...

Edit: Infact here it is now!

Edit Again: Sorry for the EPIC post length...

It looks mighty funky here but just copy and paste it into notepad and it should all align correctly

Drum Tab Key:

38 = Snare
50 = High Tom
48 = High/Mid Tom
47 = Low/Mid Tom
45 = Low Tom
41 = Low Floor Tom
43 = High Floor Tom / or nearest deal...
36 = Bass Drum
57 = Crash Symbol
49 = Other Crash Symbol
46 = Open High Hat
70 = Maracas but play a closed high hat lightly...
56 = COWBELL!

*Note = Red part is the solo section *


Devil Is a Loser
Lordi
Kita



E H H H H
C||-----|-----------36--------|-----------36--------|
C||-----|---------------------|---------------------|
C||-----|-----------41--------|-----------41--------|
C||-----|-----------41--------|-----------41--------|
C||-----|-----------38--------|-----------38--------|
C||-----|---------------------|---------------------|


H Q E S S S S S S S S S S S S S S S S E
-----------36g36-------------|--------------------------------------------36--|
-----------------------------|--------------------------------------------57--|
--------------41-------------|------------------------------------------------|
--------------41-------------|------------------------------------------------|
--------------38-------38-38-|--38-38-38-38-38-38-38-38-38-38-38-38-38-38-----|
-----------------------------|------------------------------------------------|


E E Q Q E E E E Q Q E E
---L--36--------36--------36--|------36--------36--------36--|
---L------49----49----49------|----------49----49----49------|
------------------------------|--46--------------------------|
------------------------------|------------------------------|
----------38----------38------|----------38----------38------|
------------------------------|------------------------------|


E E Q Q E E E E Q E E E E
------36--------36--------36--|------36--------36--36--36--36--|
----------49----49----49------|----------49----------------57--|
--46--------------------------|--46------------43--41--41------|
------------------------------|----------------43--41--41------|
----------38----------38------|----------38--------------------|
------------------------------|--------------------------------|


E E Q Q E E E E Q Q E E
--L--36--------36--------36--|------36--------36--------36--|
--L------49----49----49------|----------49----49----49------|
-----------------------------|--46--------------------------|
-----------------------------|------------------------------|
---------38----------38------|----------38----------38------|
-----------------------------|------------------------------|


E E Q Q E E E E Q E E E S S
------36--------36--------36--|------36--------36--36--36--------|
----------49----49----49------|----------49----------------------|
--46--------------------------|--46------------43--41--41--------|
------------------------------|----------------43--41--41--------|
----------38----------38------|----------38----------------38-38-|
------------------------------|----------------------------------|


Q Q Q Q Q Q Q Q
--36----------36----------|--36----------36----------|
--57----------------------|--------------------------|
--------------------------|--------------------------|
--------46----46----46----|--46----46----46----46----|
--------38----------38----|--------38----------38----|
--------------------------|--------------------------|


Q Q Q Q Q Q Q E. S
--36----------36----------|--36----------36------------|
--------------------------|----------------------------|
--------------------------|----------------------------|
--46----46----46----46----|--46----46----46----46---46-|
--------38----------38----|--------38----------38------|
--------------------------|----------------------------|


Q Q Q Q Q Q Q Q
--36----------36----------|--36----------36----------|
--------------------------|--------------------------|
--------------------------|--------------------------|
--46----46----46----46----|--46----46----46----46----|
--------38----------38----|--------38----------38----|
--------------------------|--------------------------|


Q Q Q E E E E Q Q E S S
--36----------36------------|------36--------36--------------|
----------------------------|--------------------------------|
----------------------------|--------------------------------|
--46----46----46----46------|--46------46----46----46--------|
--------38----------38--38--|----------38----------38--38-38-|
----------------------------|--------------------------------|


Q Q Q Q Q Q Q Q
--36----------36----------|--36----------36----------|
--49----------------------|--------------------------|
--------------------------|--------------------------|
--------46----46----46----|--46----46----46----46----|
--------38----------38----|--------38----------38----|
--------------------------|--------------------------|


Q Q Q Q Q Q Q E. S
--36----------36----------|--36----------36------------|
--------------------------|----------------------------|
--------------------------|----------------------------|
--46----46----46----46----|--46----46----46----46---46-|
--------38----------38----|--------38----------38------|
--------------------------|----------------------------|


Q Q Q Q Q Q Q Q
--36----------36----------|--36----------36----------|
--------------------------|--------------------------|
--------------------------|--------------------------|
--46----46----46----46----|--46----46----46----46----|
--------38----------38----|--------38----------38----|
--------------------------|--------------------------|


Q E E Q Q E Q E Q E S S
--36--------36--36----------|--36--------36------------------|
----------------------------|--------------------------------|
----------------------------|--------------------------------|
--46----46------46----46----|------46--------46----46--------|
--------38------------38----|------38--------38----38--38-38-|
----------------------------|--------------------------------|


Q Q Q E E Q Q Q E. S
--36----------36--------36--|--36----------36------------|
--49------------------------|--49------------------------|
----------------------------|----------------------------|
--------46----46----46------|--------46----46----46------|
--------38----------38------|--------38----------38---38-|
----------------------------|----------------------------|


Q Q Q E E Q Q Q Q
--36----------36--------36--|--36----------36----------|
--49------------------------|--49----------------------|
----------------------------|--------------------------|
--------46----46----46------|--------46----46----46----|
--------38----------38------|--------38----------38----|
----------------------------|--------------------------|


Q Q Q E E Q Q Q Q
--36----------36--------36--|--36----------36----------|
--49------------------------|--49----------------------|
----------------------------|--------------------------|
--------46----46----46------|--------46----46----46----|
--------38----------38------|--------38----------38----|
----------------------------|--------------------------|


E Q E Q Q E E E. S S S S S S S S S
--36--------36--------36----|------------------------------------------|
------57--------57----49----|------------------------------------------|
----------------------------|------------------------------------------|
----------------------------|------------------------------------------|
------38--------38----------|--38--38--38---38-38-38-38-38-38-38-38-38-|
----------------------------|------------------------------------------|


Q Q Q Q Q Q E E Q
--36----------36----------|--36----------36------------|
--49----------------------|----------------------------|
--------------------------|----------------------------|
--------46----46----46----|--46----46----46------46----|
--------38----------38----|--------38--------38--38----|
--------------------------|----------------------------|


Q Q Q Q Q Q Q E S S
--36----------36----------|--36----------36--------------|
--49----------------------|------------------------------|
--------------------------|------------------------------|
--------46----46----46----|--46----46----46----46--------|
--------38----------38----|--------38----------38--38-38-|
--------------------------|------------------------------|


Q Q Q Q Q Q E E Q
--36----------36----------|--36----------36------------|
--49----------------------|----------------------------|
--------------------------|----------------------------|
--------46----46----46----|--46----46----46------46----|
--------38----------38----|--------38--------38--38----|
--------------------------|----------------------------|


Q Q Q Q Q Q Q E E
--36----------36----------|--36----36---------36------|
--49----------------------|-----------------------57--|
--------------------------|--41----41---------41------|
--------46----46----46----|--41----41---------41------|
--------38----------38----|--38----38-------------38--|
--------------------------|---------------------------|


E E Q Q E E E E Q Q E E
-----36--------36--------36--|------36--------36--------36--|
---------49----49----49------|----------49----49----49------|
-----------------------------|------------------------------|
-----------------------------|--46--------------------------|
--L------38----------38------|----------38----------38------|
-----------------------------|------------------------------|


E E Q Q E E E E Q E E E S S
------36--------36--------36--|------36--------36--36--36--------|
----------49----49----49------|----------49----------------------|
------------------------------|----------------43--41--41--------|
--46--------------------------|--46------------43--41--41--------|
----------38----------38------|----------38----------------38-38-|
------------------------------|----------------------------------|


Q Q Q Q Q Q Q Q
--36----------36----------|--36----------36----------|
--49----------------------|--------------------------|
--------------------------|--------------------------|
--------46----46----46----|--46----46----46----46----|
--------38----------38----|--------38----------38----|
--------------------------|--------------------------|


Q Q Q Q Q Q Q E. S
--36----------36----------|--36----------36------------|
--------------------------|----------------------------|
--------------------------|----------------------------|
--46----46----46----46----|--46----46----46----46---46-|
--------38----------38----|--------38----------38------|
--------------------------|----------------------------|


Q Q Q Q Q Q Q Q
--36----------36----------|--36----------36----------|
--------------------------|--------------------------|
--------------------------|--------------------------|
--46----46----46----46----|--46----46----46----46----|
--------38----------38----|--------38----------38----|
--------------------------|--------------------------|


Q Q Q Q E E E E E E E E
--36----------36----------|--36------------------------------|
--------------------------|----------------------------------|
--------------------------|----------50--48--47--45--43--41--|
--46----46----46----46----|--46------------------------------|
--------38----------38----|------38--------------------------|
--------------------------|----------------------------------|


Q Q Q Q Q Q Q Q
--36----------36----------|--36----------36----------|
--49----------------------|--------------------------|
--------------------------|--------------------------|
--------46----46----46----|--46----46----46----46----|
--------38----------38----|--------38----------38----|
--------------------------|--------------------------|


Q Q Q Q Q Q Q E. S
--36----------36----------|--36----------36------------|
--------------------------|----------------------------|
--------------------------|----------------------------|
--46----46----46----46----|--46----46----46----46---46-|
--------38----------38----|--------38----------38------|
--------------------------|----------------------------|


Q Q Q Q Q Q Q Q
--36----------36----------|--36----------36----------|
--------------------------|--------------------------|
--------------------------|--------------------------|
--46----46----46----46----|--46----46----46----46----|
--------38----------38----|--------38----------38----|
--------------------------|--------------------------|


Q E E Q Q E Q E Q E S S
--36--------36--36----------|--36--------36------------------|
----------------------------|--------------------------------|
----------------------------|--------------------------------|
--46----46------46----46----|------46--------46----46--------|
--------38------------38----|------38--------38----38--38-38-|
----------------------------|--------------------------------|


Q Q Q E E Q Q Q E. S
--36----------36--------36--|--36----------36------------|
--49------------------------|--49------------------------|
----------------------------|----------------------------|
--------46----46----46------|--------46----46----46---46-|
--------38----------38------|--------38----------38------|
----------------------------|----------------------------|


Q Q Q E E Q Q Q E E
--36----------36--------36--|--36----------36--------36--|
--49------------------------|--49------------------------|
----------------------------|----------------------------|
--------46----46----46------|--------46----46----46------|
--------38----------38------|--------38----------38------|
----------------------------|----------------------------|


Q Q Q E. S Q Q Q Q
--36----------36------------|--36----------36----------|
--49------------------------|--49----------------------|
----------------------------|--------------------------|
--------46----46----46------|--------46----46----46----|
--------38----------38---38-|--------38----------38----|
----------------------------|--------------------------|


E Q E Q Q E E E. S S S S S S S S S
--36--------36--------36----|------------------------------------------|
------57--------57----49----|------------------------------------------|
----------------------------|------------------------------------------|
----------------------------|------------------------------------------|
------38--------38----------|--38--38--38---38-38-38-38-38-38-38-38-38-|
----------------------------|------------------------------------------|


Q Q Q Q Q Q E E Q
--36----------36----------|--36----------36------------|
--49----------------------|----------------------------|
--------------------------|----------------------------|
--------46----46----46----|--46----46----46------46----|
--------38----------38----|--------38--------38--38----|
--------------------------|----------------------------|


Q Q Q Q Q Q Q E S S
--36----------36----------|--36----------36--------------|
--49----------------------|------------------------------|
--------------------------|------------------------------|
--------46----46----46----|--46----46----46----46--------|
--------38----------38----|--------38----------38--38-38-|
--------------------------|------------------------------|


Q Q Q Q Q Q E E Q
--36----------36----------|--36----------36------------|
--49----------------------|----------------------------|
--------------------------|----------------------------|
--------46----46----46----|--46----46----46------46----|
--------38----------38----|--------38--------38--38----|
--------------------------|----------------------------|


Q Q Q Q Q Q H
--36----------36----------|--36----36-------------|
--49----------------------|-----------------------|
--------------------------|--41----41-------------|
--------46----46----46----|--41----41-------------|
--------38----------38----|--38----38-------------|
--------------------------|-----------------------|


E E E E E E E E E E E E E E E E
--36------36------36------36------|--36------36------36------36------|
----------------------------------|----------------------------------|
----------------------------------|----------------------------------|
--70--70--70--70--70--70--70--70--|--70--70--70--70--70--70--70--70--|
----------------------------------|----------------------------------|
----------------------------------|----------------------------------|


E E E E E E E E E E E E E E E E
--36------36------36------36------|--36------36------36------36------|
----------------------------------|----------------------------------|
----------------------------------|----------------------------------|
--70--70--70--70--70--70--70--70--|--70--70--70--70--70--70--70--70--|
----------------------------------|----------------------------------|
----------------------------------|----------------------------------|


E E E E E E E E E E E E E E E E
--36------36------36------36------|--36------36------36------36------|
----------------------------------|----------------------------------|
----------------------------------|----------------------------------|
--70--70--70--70--70--70--70--70--|--70--70--70--70--70--70--70--70--|
----------------------------------|----------------------------------|
----------------------------------|----------------------------------|


E E E E E E E E E E E E E E E E
--36------36------36------36------|--36------36------------------36--|
----------------------------------|------------------------------57--|
----------------------------------|----------------------------------|
--70--70--70--70--70--70--70--70--|--70--70--70--70--56--56--56------|
----------------------------------|----------------------------------|
----------------------------------|----------------------------------|


E E Q Q E E E E Q Q E E
---L--36--------36--------36--|------36--------36--------36--|
---L------49----49----49------|----------49----49----49------|
------------------------------|--46--------------------------|
------------------------------|------------------------------|
----------38----------38------|----------38----------38------|
------------------------------|------------------------------|


E E Q Q E E E E Q E S S E E
------36--------36--------36--|------36------------36-36-36--36--|
----------49----49----49------|----------49------------------57--|
--46--------------------------|--46----------------45-43-41------|
------------------------------|----------------------------------|
----------38----------38------|----------38----38----------------|
------------------------------|----------------------------------|


E E Q Q E E E E Q Q E S S
--L--36--------36--------36--|------36--------36--------36-36-|
--L------49----49----49------|----------49----49----49--------|
-----------------------------|--46----------------------------|
-----------------------------|--------------------------------|
---------38----------38------|----------38----------38--------|
-----------------------------|--------------------------------|


E E E S S E E E S S E E E E E S S S S S S
--36--36------36-36-36--36------36-36-|--36----------36------36-36-36-36-36-36-|
----------57----------------49--------|------57----------57--------------------|
--------------------------------------|----------------------41-41-41-41-41-41-|
--------------------------------------|----------------------------------------|
----------38----------------38--------|------38--38------38--------------------|
--------------------------------------|----------------------------------------|


Q Q E E E E E E Q Q Q
--36----------36--36------36--|--L--36--------36----36----|
--49----------------------49--|--L------------57----49----|
------------------------------|---------------------------|
--------46----46------46------|---------46----------------|
--------38------------38------|---------38----------------|
------------------------------|---------------------------|


Q Q E E E E E E E E E E Q
--36----------36--36------36--|--L--36------36------36--------|
--49----------------------49--|--L--------------57------49----|
------------------------------|-------------------------------|
--------46----46------46------|---------46--------------------|
--------38------------38------|---------38------38------38----|
------------------------------|-------------------------------|


Q Q E E E E E E E S S Q Q
--36----------36--36------36--|--L--36------36----36----36----|
--49----------------------49--|--L----------------57----49----|
------------------------------|-------------------------------|
--------46----46------46------|---------46--------------------|
--------38------------38------|---------38-----38-------------|
------------------------------|-------------------------------|


Q Q E E E E E Q E Q Q
--36----------36--36----------|--36--------36--------36----|
--49--------------------------|------57--------49----57----|
------------------------------|----------------------------|
--------46----46------46--46--|----------------------------|
--------38------------38------|------38--------38----------|
------------------------------|----------------------------|


S S S S S S S S S S S S S S S S Q Q Q Q
---L----------------------------------------------|--36----------36----------|
--------------------------------------------------|--49----------------------|
--43----------------43-43-------43-43-------43-43-|--------------------------|
--------------------------------------------------|--------46----46----46----|
-----38-38-38-38-38-------38-38-------38-38-------|--------38----------38----|
--------------------------------------------------|--------------------------|


Q Q E E Q Q Q Q Q
--36----------36------------|--36----------36----------|
----------------------------|--49----------------------|
----------------------------|--------------------------|
--46----46----46------46----|--------46----46----46----|
--------38--------38--38----|--------38----------38----|
----------------------------|--------------------------|


Q Q Q E S S Q Q Q Q
--36----------36--------------|--36----------36----------|
------------------------------|--49----------------------|
------------------------------|--------------------------|
--46----46----46----46--------|--------46----46----46----|
--------38----------38--38-38-|--------38----------38----|
------------------------------|--------------------------|


Q Q E E Q Q Q Q Q
--36----------36------------|--36----------36----------|
----------------------------|--49----------------------|
----------------------------|--------------------------|
--46----46----46------46----|--------46----46----46----|
--------38--------38--38----|--------38----------38----|
----------------------------|--------------------------|


Q Q S S S S S S S S Q Q Q Q
--36----36----------------------------|--36----------36----------|
--57----57----------------------------|--49----------------------|
--41----41----50-48-47-45-47-45-43-41-|--------------------------|
--41----41----------------------------|--------46----46----46----|
--38----38----------------------------|--------38----------38----|
--------------------------------------|--------------------------|


Q Q E E Q Q Q Q Q
--36----------36------------|--36----------36----------|
----------------------------|--49----------------------|
----------------------------|--------------------------|
--46----46----46------46----|--------46----46----46----|
--------38--------38--38----|--------38----------38----|
----------------------------|--------------------------|


Q Q E S S S S S S Q Q Q Q
--36----------36--------------------|--36----------36----------|
------------------------------------|--49----------------------|
---------------------------45-43-41-|--------------------------|
--46----46----46--------------------|--------46----46----46----|
--------38--------38-38-38----------|--------38----------38----|
------------------------------------|--------------------------|


Q Q E E Q Q Q Q Q
--36----------36------------|--36----------36----------|
----------------------------|--49----------------------|
----------------------------|--------------------------|
--46----46----46------46----|--------46----46----46----|
--------38--------38--38----|--------38----------38----|
----------------------------|--------------------------|


Q Q S S S S S S S S Q Q Q Q
--36----36----------------------------|--36----------36----------|
--57----57----------------------------|--49----------------------|
--41----41----50-48-47-45-47-45-43-41-|--------------------------|
--41----41----------------------------|--------46----46----46----|
--38----38----------------------------|--------38----------38----|
--------------------------------------|--------------------------|


Q Q S S S S S S S S Q Q Q Q
--36----36----------------------------|--36----------36----------|
--57----57----------------------------|--49----------------------|
--41----41----50-48-47-45-47-45-43-41-|--------------------------|
--41----41----------------------------|--------46----46----46----|
--38----38----------------------------|--------38----------38----|
--------------------------------------|--------------------------|


Q Q H W
--36----36-------------|-------------------||
--57----57-------------|-------------------||
--41----41-------------|-------------------||
--41----41-------------|-------------------||
--38----38-------------|-------------------||
-----------------------|-------------------||




Duration Legend
---------------
W - whole
H - half
Q - quarter
E - 8th
S - 16th
T - 32nd
X - 64th
. - note dotted
|-n-| - n-tuplets

Stay Heavy Monstermaniacs :twisted: .
Getting Heavy Since : 18,09,03
Hell-o I am me, who the Hell are you?
Image
Proud Brother of the Unholy Ghost
User avatar
Beauty of the beast
Ex-Moderator
 
Posts: 2362
Joined: Thu Sep 18, 2003 3:06 pm
Location: Merry old England... Like Finland but not.


Return to General discussion


Who is online

Users browsing this forum: No registered users and 3 guests

cron