Page 16 of 18

PostPosted: Mon Jun 29, 2009 1:35 pm
by Deadly Kid
Hi people! I don't know maybe someone wanted it before but i didn't found it via "Search"... If you have, can you send me It Snows In Hell's drums tabs? Thanks...

PostPosted: Sat Jul 04, 2009 4:53 am
by dean4xena
Xyku9 wrote:PLEASE anyone post organ intro tabs for HARD ROCK HALLELUJAH :lol:


Eb G A Bb A F

G Bb C D Eb D C F

F A Bb C Bb A Bb C

Eb G A Eb A G F D

Eb G A Bb C Bb A F

G Bb C D Eb D C F

F A Bb C Bb A Bb C

Bb A Ab G F# F F E Eb

---

Anybody have It snows In Hell Keyboard notes?
Including Awa's awsome Live Intro.

PostPosted: Sun Jul 05, 2009 3:48 am
by Doomality
dean4xena wrote:
Xyku9 wrote:PLEASE anyone post organ intro tabs for HARD ROCK HALLELUJAH :lol:


Eb G A Bb A F

G Bb C D Eb D C F

F A Bb C Bb A Bb C

Eb G A Eb A G F D

Eb G A Bb C Bb A F

G Bb C D Eb D C F

F A Bb C Bb A Bb C

Bb A Ab G F# F F E Eb

---

Anybody have It snows In Hell Keyboard notes?
Including Awa's awsome Live Intro.

I don't have notes but I've seen a tutorial on youtube. That's how I learned it. ;)

PostPosted: Sun Jul 05, 2009 7:12 pm
by Sooophie
Hell-o

I'm looking for keyboard tabs :?

Sorry if it's already asked. :oops:

PostPosted: Wed Aug 19, 2009 5:44 pm
by martinmaniac
just to inform other guitar players, there's a dude, who's tabbed out 4-5 songs from deadache or so. If it's anyone from here, just wanna tell you, that your tabs rock :twisted:

PostPosted: Tue Aug 25, 2009 5:13 pm
by Thomas
Does anybody here know how to play the solo in Where's The Dragon? If yes, could somebody tab it? I got all the rhytms..

PostPosted: Wed Aug 26, 2009 4:33 am
by Doomality
Thomas wrote:Does anybody here know how to play the solo in Where's The Dragon? If yes, could somebody tab it? I got all the rhytms..

I'm in the same position as you! :lol: I can't play that solo but I know all the rhythm of the song.

PostPosted: Thu Aug 27, 2009 11:12 pm
by Thomas
Doomality wrote:
Thomas wrote:Does anybody here know how to play the solo in Where's The Dragon? If yes, could somebody tab it? I got all the rhytms..

I'm in the same position as you! :lol: I can't play that solo but I know all the rhythm of the song.


Well, in fact, today I (THINK!) I have figured out the first part of the solo ;D

PostPosted: Fri Aug 28, 2009 4:27 pm
by AAore
Can you tab it out guys, please :oops:
(rythm, and that first solo part :D)

PostPosted: Sat Apr 10, 2010 7:40 pm
by Evilove_93
I've tabbed Pyromite and Missing Miss Charlene in Guitar Pro so if anyone need these songs, message me :D Also if someone have Dead Bugs Bite tabbed please message me! :)

PostPosted: Sat Apr 10, 2010 9:07 pm
by Thomas
Evilove_93 wrote:I've tabbed Pyromite and Missing Miss Charlene in Guitar Pro so if anyone need these songs, message me :D Also if someone have Dead Bugs Bite tabbed please message me! :)


You can post your tabs at www.ultimate-guitar.com :)

PostPosted: Sat Apr 10, 2010 10:10 pm
by martinmaniac
yeah, could be cool if you could post it on UG :) or else, upload a link here :D

PostPosted: Sun Apr 11, 2010 1:49 am
by Evilove_93

PostPosted: Sun Apr 11, 2010 11:58 am
by Sooophie
Thanks :)
I just find the "bass solo" at the beggining of Pyromite too fast, otherwise, the tabs are cool!

PostPosted: Fri May 21, 2010 11:00 pm
by BlackVince
Hi guys I am back after like a year :) Can't wait for the new album, how about you? Oo and for any1 who wants Lordi bass tabs, I tabbed out pretty much all songs rite now ;)

PostPosted: Tue Jun 29, 2010 12:44 pm
by AAore
This is heavy metal could be something like this:

(Drop D)

Rhythm fig. 1
E----------------------------------------
B----------------------------------------
G----------------------------------------
D-0--7--0--6--0--5--0--3--3--1--3-
A-0--7--0--6--0--5--0--3--3--1--3-
D-0--7--0--6--0--5--0--3--3--1--3-

Rhythm fig. 2
E---------------------------------
B---------------------------------
G---------------------------------
D-0--7--0--6--0--5--0--8--10--
A-0--7--0--6--0--5--0--8--10--
D-0--7--0--6--0--5--0--8--10--

Rhythm fig. 3
G---------------------------
D---------------------------
A---------------------------
D-0-7-0-6-0-5-0-3-3-5-3-

Rhythm fig. 4
G------------------------
D------------------------
A------------------------
E-0-7-0-6-0-5-0-8-10-

Rhythm fig. 5
E--------------------------------------------------------------------------------
B--------------------------------------------------------------------------------
G--------------------------------------------------------------------------------
D-----------------------------------------------------------------------------10--8--
A-5-5-5-5-5-5-5-5-5-5-5-5-5-5-5-5-3-3-3-3-3-3-3-3-5-5-5-5-----10--8--
D-5-5-5-5-5-5-5-5-5-5-5-5-5-5-5-5-3-3-3-3-3-3-3-3-5-5-5-5-----10--8--
All 5 and 3 = PM in Fig 4 and 5

Rhythm fig. 6
E---------------------------------------------------------------------
B---------------------------------------------------------------------
G---------------------------------------------------------------------
D---------------------------------------------------------------------
A-5-5-5-5-5-5-5-5-5-5-5-5-5-5-5-5-3-3-3-3-3-3-3-3-5-5-5-5--
D-5-5-5-5-5-5-5-5-5-5-5-5-5-5-5-5-3-3-3-3-3-3-3-3-5-5-5-5--

Rhythm fig. 7
G---------------------------------------------------------------------------------
D---------------------------------------------------------------------------------
A---------------------------------------------------------------------------------
D-5-5-5-5-5-5-5-5-5-5-5-5-5-5-5-5-3-3-3-3-3-3-3-3-3-5-5-5-5-----5--3--

Rhythm fig. 8
E-------------------------------------------------------------------------------
B-------------------------------------------------------------------------------
G------------------------------------------------------------------------------
D-7--------8----0-0-7-0-0-6-0-0-5-0-0-3---5----7--------8-----8-------7-
A-7--------8----0-0-7-0-0-6-0-0-5-0-0-3---5----7--------8-----8-------7-
D-7--------8----0-0-7-0-0-6-0-0-5-0-0-3---5----7--------8-----8-------7-
All 0 = PM in fig. 7


Rhythm fig. 9
G----------------------------------------------------------------------
D----------------------------------------------------------------------
A-----------------------------------------------------------------------
D-7----8---0-0-7-0-0-6-0-0-5-0-0-3-0-0-5----7----8----8----7---


Rhythm fig. 1

Rhythm fig. 2

Rhythm fig. 1/3

Rhythm fig. 2/4

Rhythm fig. 5/7

Rhythm fig. 6/7

Rhythm fig. 8/9

Rhythm fig. 1/3

Rhythm fig. 2/4

Rhythm fig. 1/3

Rhythm fig. 2/4

Rhythm fig. 5/7

Rhythm fig. 6/7

Rhythm fig. 8/9

PostPosted: Tue Jun 29, 2010 1:15 pm
by sven
AAore wrote:This is heavy metal could be something like this:

(Drop D)

E----------------------
B----------------------
G-5-5-3-----2-2-2----
D-5-5-3-----2-2-2----
A-3-3-1-----0-0-0----
D-----------------------
______________________________

E----------------------------------------
B----------------------------------------
G----------------------------------------
D-0--7--0--6--0--5--0--8--10--0-0-0-
A-0--7--0--6--0--5--0--8--10--0-0-0-
D-0--7--0--6--0--5--0--8--10--0-0-0-
_______________________|PM-|

how do you know, it's not released yet xD

PostPosted: Sat Oct 02, 2010 12:49 pm
by Fiorel
Hi, hum.... thx for TIHM tab it's pretty good :) but.... someone have already tab Rock Police? ^^'

PostPosted: Sat Oct 02, 2010 1:08 pm
by Thomas
Fiorel wrote:Hi, hum.... thx for TIHM tab it's pretty good :) but.... someone have already tab Rock Police? ^^'


I haven't tabbed it, but I made a video, maybe it will help you a little :)

PostPosted: Sun Oct 03, 2010 6:36 pm
by Fiorel
yeah thx Thomas, the video is on Youtube?

PostPosted: Sun Oct 03, 2010 7:27 pm
by Thomas

PostPosted: Sun Oct 03, 2010 10:03 pm
by Fiorel
So.... i try to tab it with the help of your video and.... i found something like this:

Intro: G G A G G F A D (x2) and G G F F G for transition to the Verse

Verse: Am F G Am (F G) Am F G F

"Slash and burn protect and serve" --> A F A F A F A F etc...

Pre-Chorus: B F# G D A (x2) and G F# E to go to Chorus

Chorus: B G A (x2) and transition to Verse, G FG

I stoped when i saw the solo... pretty hard to see what you play! lol

PostPosted: Sun Oct 03, 2010 10:40 pm
by Thomas
The clean part in the verse, is actually:

Am, F, G, Am ;)

PostPosted: Sun Oct 03, 2010 10:46 pm
by Fiorel
Thomas wrote:The clean part in the verse, is actually:

Am, F, G, Am ;)


Yeah x) i just forget to write it ^^'

PostPosted: Sun Oct 03, 2010 10:51 pm
by AAore
Thomas wrote:The clean part in the verse, is actually:

Am, F, G, Am ;)

Am, F/A, G, Am ;)